Song name
# A B C D E F G H I J K L M N O P Q R S T U V W X Y Z

Washya - Execute tab

-----------------------------------------------------------------------------
                         Execute - Washya
-----------------------------------------------------------------------------
Tuning: Drop B (BF#BEG#B#) 
Intro
B|------------------------------------|
F#|-----------------------------------|
B|------------------------------------|
E|-----5----------------5-------------|
G#|-00-3-5-2-0-2-3-2-00-3-6-3-0-5-3-2-|
C#|-00---5-2-0-2-3-2-00---6-3-0-5-3-2-|

Main Riff
B|-----------------------------------------------------|
F#|----------------------------------------------------|
B|-----------------------------------------------------|
E|----------------------------------------------555/77-|
G#|-3-1-0-1-3-1-3/6-0-3-5-6p5-3-1-0-1-3-1-3/6-0-333/55-|
C#|-3-1-0-1-3-1-3/6-0-3-5-6p5-3-1-0-1-3-1-3/6-0--------|

Verses (Palm Muted Second time round)
B|------------------------------------------------|
F#|-----------------------------------------------|
B|------------------------------------------------|
E|------------3-----------5-----------3-----------|
G#|-0-3-1-0-1-1-0-3-1-0-1-3-0-3-1-0-1-1-0-1-3-4-3-|
C#|-0-3-1-0-1---0-3-1-0-1---0-3-1-0-1---0-1-3-4-3-|
Tap to rate this tab
 
# A B C D E F G H I J K L M N O P Q R S T U V W X Y Z