Song name
# A B C D E F G H I J K L M N O P Q R S T U V W X Y Z

Washya - Chain Reaction tab

-----------------------------------------------------------------------------
            Chain Reaction - Washya
-----------------------------------------------------------------------------
Tuning: Drop D (DADGBE)
Intro
E|------------------------------------|
B|------------------------------------|
G|------------------------------------|
D|-----3-5-6-----5-7-8-----7-9-10-3h5-|
A|---3---------5---------7--------3h5-|
D|-3---------5---------7----------3h5-|

Main Riff/Chorus
E|-----------------------------------------|
B|-----------------------------------------|
G|-----------------------------------------|
D|-----------------------------------------|
A|-----3-----5-----6-----5-----1---1-3-1---|
D|-000-3-000-5-000-6-000-5-000-1-0-1-3-1-0-|
PM ***   ***   ***   ***   ***   *       * 

Verses
E|-----------------------------------------------|
B|-----------------------------------------------|
G|-----------------------------------------------|
D|-----------------------------------------------|
A|-555-6b-3-777-8b-5-222-3b-0-000-1b-0-111-2p1p0-|
D|-555-6b-3-777-8b-5-222-3b-0-000-1b-0-111-2p1p0-|
Tap to rate this tab
 
# A B C D E F G H I J K L M N O P Q R S T U V W X Y Z