Song name
# A B C D E F G H I J K L M N O P Q R S T U V W X Y Z

Washya - Dark Horizon tab

-----------------------------------------------------------------------------
                           Dark Horizon - Washya
-----------------------------------------------------------------------------
Tuning: Standard (EBGDAE)
Intro
E|---------------------------|
B|---------------------------|
G|---------------------------|
D|---------------------------|
A|-5-5h6-3-3-3h4-1-------3-2-|
E|-----------------2-2h3-1-0-|

Main Riff/Chorus
E|------------------------|
B|------------------------|
G|------------------------|
D|-77/8-5-55/6-3----------|
A|-55/6-3-33/4-1-44/5-3-2-|
E|---------------22/3-1-0-|

Verses
E|-----------------------------------------|
B|-----------------------------------------|
G|-----------------------------------------|
D|-----------------------------------------|
A|---3-2-xx-xxxx-xx-\-8\7-xx-xxxx-xx-\-3-2-|
E|-//1-0-xx-xxxx-xx-\-6\5-xx-xxxx-xx-\-1-0-|

Guitar Solo
E|-------------------------------------------------------14-16~-|
B|----15----------15-14-------13-12----15-13-12----14-12--------|
G|-------14-12-14-------13-15-------13----------15--------------|
D|-12-----------------------------------------------------------|
A|--------------------------------------------------------------|
E|--------------------------------------------------------------|

E|-16161616p13----16161616p13-------------12-------------15b-15b-15b-|
B|-------------14-------------14-12-15-14----15-14-12-14-------------|
G|-------------------------------------------------------------------|
D|-------------------------------------------------------------------|
A|-------------------------------------------------------------------|
E|-------------------------------------------------------------------|

E|-15-15-16p15p13h15p13h15p13p12----12-11-------------------------------|
B|-------------------------------13-------13-12-------------------------|
G|----------------------------------------------10-13-12-------13p12----|
D|-------------------------------------------------------10-12-------10-|
A|----------------------------------------------------------------------|
E|----------------------------------------------------------------------|

E|----------------------------------------17b-17b-17b-17h18h20-20bp19p17h19-|
B|------------------------------------/16-----------------------------------|
G|--------------------------------------------------------------------------|
D|-8-10----10-8-------------------------------------------------------------|
A|------12------10h12-------8-----------------------------------------------|
E|--------------------12-10---10-8-10---------------------------------------|

E|-----------------------------------------------------------------|
B|-14bp12----------------------------------------------------------|
G|--------10bp8----------------8bp7---7-10p8p7h10p8p7\7p5p4h7p5p4\-|
D|--------------8bp6---------7------9------------------------------|
A|-------------------999-7-9---------------------------------------|
E|-----------------------------------------------------------------|

E|--------------------------------------------------------------------------|
B|----------------------------------------------------------9h10h12p9h10h12-|
G|-4p2p1h4p2p1p0----------------6h7h9p6h7h9-9h10h12p9h10h12-----------------|
D|---------------2b-3h4h6p3h4h6---------------------------------------------|
A|--------------------------------------------------------------------------|
E|--------------------------------------------------------------------------|

E|-------------------15h16h18p15h16h18-20b-20b-21\-|
B|-12h13h15p12h13h15---------------------------21\-|
G|-------------------------------------------------|
D|-------------------------------------------------|
A|-------------------------------------------------|
E|-------------------------------------------------|

Outro
E|--------------------------------------------|
B|--------------------------------------------|
G|--------------------------------------------|
D|-----------2~-----------3~-------/6p5p3-----|
A|-2-2-3---2----3-3-2-1h2----2-2-4--------5-2-|
E|-0-0-1-0------1-1-0--------0-0-2----------0-|
Tap to rate this tab
# A B C D E F G H I J K L M N O P Q R S T U V W X Y Z