Song name
# A B C D E F G H I J K L M N O P Q R S T U V W X Y Z

Washya - Censored tab

-----------------------------------------------------------------------------
                            Censored - Washya
-----------------------------------------------------------------------------
Tuning: Standard (EBGDAE)
Intro/Verses
E|-----------------------------------------------|
B|-----------------------------------------------|
G|-----------------------------------------------|
D|-----------------------------------------------|
A|-----6p5h6-----5p3h5---------------------------|
E|-000-------000-------000-5p3h5-6p5h6-1p0h1-000-|
PM ***       ***       *** 

Riff 2/Chorus
E|-----------------------------------------------|
B|-----------------------------------------------|
G|-----------------------------------------------|
D|-----8\7/8-----7\7/7---------------------------|
A|-----6\5/6-----5\3/5-----7\5/7-8\7/8-3-2-3-222-|
E|-000-------000-------000-5\3/5-6\5/6-1-0-1-000-|
PM ***       ***       *** 
Tap to rate this tab
 
# A B C D E F G H I J K L M N O P Q R S T U V W X Y Z