Song name
# A B C D E F G H I J K L M N O P Q R S T U V W X Y Z

Washya - Herb Garden tab

------------------------------------------------------------------------------
                         Herb Garden - Washya
------------------------------------------------------------------------------
Tuning: Standard (EBGDAE)
Intro/Verses
E|---0-----3---------0-----3-----------------------3---0-------0-----|
B|-----3-----0---------3-----3-----------------0-0---2-----------0---|
G|-----------------------0-------0h1p0-2h3p2h3-0-0-----------------3-|
D|-----------------2-------------------------------------------------|
A|-------0-------0---------------------------------------0-----------|
E|-0-----------0---------------3---------------------------3-2-------|

Chorus
       C,    Am,     A,      G,      Em.
E|-0-0-0-0-0-0-0-0-0-0-0-0-3-3-3-3-0-0-0-0-|
B|-1-1-1-1-0-0-0-0-2-2-2-2-3-3-3-3-0-0-0-0-|
G|-0-0-0-0-1-1-1-1-2-2-2-2-0-0-0-0-0-0-0-0-|
D|-2-2-2-2-2-2-2-2-2-2-2-2-0-0-0-0-2-2-2-2-|
A|-3-3-3-3-2-2-2-2---------2-2-2-2-2-2-2-2-|
E|-------------------------3-3-3-3-0-0-0-0-|
Tap to rate this tab
 
# A B C D E F G H I J K L M N O P Q R S T U V W X Y Z