Song name
# A B C D E F G H I J K L M N O P Q R S T U V W X Y Z

Washya - Detention tab

------------------------------------------------------------------------------
                           Detention - Washya
------------------------------------------------------------------------------
Tuning: Drop D (DADGBE)
Intro/Verses
E|-----------------------------------------------------|
B|-----------------------------------------------------|
G|-----------------------------------------------------|
D|-----------------------------------------------------|
A|-0-0-0-0-0-0-34503-0-0-0-0-0-0-0-34503-0-0-0-0-0-0-0-|
D|-0-0-0-0-0-0-34503-0-0-0-0-0-0-0-34503-0-0-0-0-0-0-0-|
PM * * * * * *       * * * * * * *       * * * * * * * 

Chorus
E|-0-0-3-0-5---------------------------------------------------|
B|-1-1-3-2-5---------------------------------------------------|
G|-0-2-5-2-7--99999999\88888888\6666666------------------------|
D|-2-2-3-2-5------------------------------------------555-5/7--|
A|-3-0-3-0-5-/77777777\66666666\4444444-4-0-2-5-4-2-0-333-3/5--|
D|-0-0-3-0-5----------------------------4-0-2-5-4-2-0----------|
PM                                      * * * * * * * 

Lead 
E|----------------------------------------15-15----13----15----13----15p13~-|
B|------------------------------------/12-------12----12----12----12--------|
G|-/99999999\8888888\77777777\6666666---------------------------------------|
D|--------------------------------------------------------------------------|
A|--------------------------------------------------------------------------|
D|--------------------------------------------------------------------------|

E|---------------------------------------15-15----16----17----18~-|
B|-1515151515\141414141414\1212121212-12-------13----14----15-----|
G|----------------------------------------------------------------|
D|----------------------------------------------------------------|
A|----------------------------------------------------------------|
D|----------------------------------------------------------------|
Tap to rate this tab
 
# A B C D E F G H I J K L M N O P Q R S T U V W X Y Z