Song name
# A B C D E F G H I J K L M N O P Q R S T U V W X Y Z

Washya - Terror Byte tab

-----------------------------------------------------------------------------
                Terror byte - Washya
-----------------------------------------------------------------------------
Tuning: Standard (EBGDAE)
Intro/Verses
E|---------0-----------------0----------------------------------------------|
B|-------2-----2-----------1-----1-------------------2---------------1------|
G|-----3-----3-----------2-----2-------------2-----3---------1-----2--------|
D|---5-------------5---4-------------4-----3-----5---------2-----4----------|
A|-7-------------7---6-------------6-----5-----7---------4-----6---------5--|
E|-------------------------------------7---------------6---------------6----|
PM                                                                     * * 

E|-------------|
B|-------------|
G|-------------|
D|-------------|
A|---2-------2-|
E|-4---2h3p2-0-|
PM * * *****

Main Riff
E|-----------------------------------------------------------------------|
B|-----------------------------------------------------------------------|
G|------------5------------6-----------3--9\8/9\8-6------------7---------|
D|----------4---4--------5---5---------3--7\6/7\6-4----------6---6-------|
A|-2------4-----4------5-----5-------1-1------------6------6-----6-----2-|
E|-0-00-2-------2-22-3-------3-3-1-3----------------4-44-4-------4-2p1-0-|
PM   ** * * * *   ** * * * *   * * * *                ** * * * *   ***   
Tap to rate this tab
# A B C D E F G H I J K L M N O P Q R S T U V W X Y Z