Song name
# A B C D E F G H I J K L M N O P Q R S T U V W X Y Z

Washya - From Heaven Too Hell tab

------------------------------------------------------------------------------
      From Heaven Too Hell - Washya
------------------------------------------------------------------------------
Tuning: Drop D (DADGBE)
Intro
E|-------------------------------------|
B|-------------------------------------|
G|-------------------------------------|
D|-------------------------------------|
A|-0-3-6-5-0-3-0-1-3-0-3-6-5-0-3-0-1-3-|
D|-0-3-6-5-0-3-0-1-3-0-3-6-5-0-3-0-1-3-|

Verses
E|----------------------------------------|
B|----------------------------------------|
G|----------------------------------------|
D|----------------------------------------|
A|-000-0-0-0-000-0-00-0-0-0-000-/12\-/12\-|
D|-000-0-0-0-000-0-00-0-0-0-000-/12\-/12\-|
PM *** * * * *** * ** * * * ***  

Chorus
E|----------------------------------------------------------------|
B|----------------------------------------------------------------|
G|----------------------------------------------------------------|
D|-------------------------3333/55-----------------666\444--------|
A|------555555555-11111111-1111/33-3-333333-666666-444\222-333220-|
D|-xx//-555555555-11111111---------3-333333-666666---------333220-|

Guitar Solo
E|--------------------------------7b~-10p7--------------------------|
B|-----------------------------------------8p7----------------------|
G|---------------------------------------------10p8p7--------8h9h11-|
D|-----3---3-6-3-6-6b-3-------------------------------7h8h10--------|
A|-3-5---5--------------5-4-3---------------------------------------|
D|----------------------------5-2-----------------------------------|
   
                                       
E|---------10~-10----------------10h14p10----------------10h14p10-14~-|
B|-9h10h12--------12p10----10h12----------12p10----10h12--------------|
G|----------------------11----------------------11--------------------|
D|--------------------------------------------------------------------|
A|--------------------------------------------------------------------|
D|--------------------------------------------------------------------|
Tap to rate this tab
# A B C D E F G H I J K L M N O P Q R S T U V W X Y Z