Song name
# A B C D E F G H I J K L M N O P Q R S T U V W X Y Z

Washya - City Lights tab

-----------------------------------------------------------------------------
          City Lights - Washya
-----------------------------------------------------------------------------
Tuning: Standard (EBGDAE)
Intro
E|-0-0-------0-------------0---|
B|-1---1-------1-----1-------1-|
G|-0-------------------0-------|
D|-2-------2-------2-----------|
A|-3-----3-------3-------3-----|
E|-----------------------------|

Verses
E|----------------------------------------------|
B|----------------------------------------------|
G|----------------------------------------------|
D|---------------5---------------3--------------|
A|-7-778-778-778-3-7-778-778-778-1-7777-8-7-5-2-|
E|-5-556-556-556---5-556-556-556---5555-6-5-3-0-|

Chorus
E|-0-0-0-2-2-2-3-3-3------------------------3-|
B|-1-1-1-3-3-3-3-3-3-2-2-2-1-1-1-1p0--------3-|
G|-0-0-0-2-2-2-0-0-0-2-2-2-2-2-2-----2p0----0-|
D|-2-2-2-------0-0-0-2-2-2-2-2-2---------2--0-|
A|-3-3-3-------2-2-2------------------------2-|
E|-------------3-3-3------------------------3-|
     C,   D,   G,      A,   Am,             G.  
Tap to rate this tab
# A B C D E F G H I J K L M N O P Q R S T U V W X Y Z