Song name
# A B C D E F G H I J K L M N O P Q R S T U V W X Y Z

Washya - Icy Reception tab

-----------------------------------------------------------------------------
                  Icy Reception - Washya
-----------------------------------------------------------------------------
Tuning: Standard (EBGDAE)
Intro
E|----------------------------------|
B|----------------------------------|
G|----------------------------------|
D|----------------------------------|
A|-2-2-2-2-2-2-2-2-2-2-2-2-2-4444/5-|
E|-0-0-0-0-0-0-0-0-0-0-0-0-0-2222/3-|
PM * * * * * * * * * * * * * 

Main Riff
E|---------------------------|
B|---------------------------|
G|---------------------------|
D|-------4-2p0---------------|
A|---2/5-------5p4p2---2-----|
E|-0-----------------5---3-0-|
PM *                         

Verses
E|-----------------------------------------------------------|
B|---------------0----------------------------2--------------|
G|-------0-----2-------------0--------2-----4---4------------|
D|-----2-----4---------0---2--------4-----5-------5----------|
A|---4-----5---------2---3--------5-----7-----------7-7777/9-|
E|-5---------------3------------7---------------------5555/7-|
Tap to rate this tab
# A B C D E F G H I J K L M N O P Q R S T U V W X Y Z