Song name
# A B C D E F G H I J K L M N O P Q R S T U V W X Y Z

Washya - Star Light tab

-----------------------------------------------------------------------------
                     Star Light - Washya
-----------------------------------------------------------------------------
Tuning: Standard (EBGDAE)
Intro
E|--------------------------------|
B|--------------------------------|
G|--------------------------------|
D|--------------------------------|
A|---4---3---4---3---4---3-333-22-|
E|-2---1---2---1---2---1---111-00-|
PM * * * * * * * * * * * * 

Verses
E|---------------------------------------|
B|---------------------------------------|
G|-------------0---------------0---------|
D|---4-------4---4---4-------4---4-------|
A|-2-----4-2-------2-----4-2-------3-4-5-|
E|-----2---------------2-----------1-2-3-|

Chorus
E|--------------------------------------------|
B|--------------------------------------------|
G|--------------------------------------------|
D|-------8888-------6666-------4444-----------|
A|-------6666-------4444-------2222---4-5-4-2-|
E|-2-2-2------2-2-2------2-2-2------0-2-3-2-0-|
PM * * *      * * *      * * *      *      
Tap to rate this tab
# A B C D E F G H I J K L M N O P Q R S T U V W X Y Z