Song name
# A B C D E F G H I J K L M N O P Q R S T U V W X Y Z

Washya - Strong Willed tab

------------------------------------------------------------------------------
                             Strong Willed - Washya
------------------------------------------------------------------------------
Tuning: Standard (EBGDAE)
Intro/Chorus (Part 1)
E|---------------------------|
B|---------------------------|
G|---------------------------|
D|----------------------77/9-|
A|-5-3-0-55-3-----5-3-0-55/7-|
E|------------5-3------------|

Intro (Part 2)
E|-------------------|
B|-------------------|
G|-------------------|
D|-------------------|
A|-55555555/88888888-|
E|-33333333/66666666-|
PM ******** ******** 

Verses
E|--------------------------------------------|
B|--------------------------------------------|
G|--------------------------------------------|
D|--------------------------------------------|
A|-55555555555555-3333333333333-7777777777777-|
E|-33333333333333-1111111111111-5555555555555-|
PM **** * * * * * ******* * * * ***** * **** 

Chorus
E|---------------------------|
B|---------------------------|
G|---------------------------|
D|----------------------77/9-|
A|-5-3-0-55-3-----5-3-0-55/7-|
E|------------5-3------------|
Tap to rate this tab
 
# A B C D E F G H I J K L M N O P Q R S T U V W X Y Z