Song name
# A B C D E F G H I J K L M N O P Q R S T U V W X Y Z

Washya - Palpitations tab

-----------------------------------------------------------------------------
                        Palpitations - Washya
-----------------------------------------------------------------------------
Tuning: Standard (EBGDAE)
Intro
E|-----------------------------------------------|
B|-----------------------------------------------|
G|-----------------------------------------------|
D|--------5/8\7\5--------555/8\7-----------------|
A|--------3/6\5\3--------333/6\5-5------5------5-|
E|-000000---------000000---------3-333333-333333-|
PM ******         ******           *****  ***** 

Verses
E|-----------------------------------------------------------------|
B|-----------------------------------------------------------------|
G|-----------------------------------------------------------------|
D|-----------------------------------------------------------------|
A|----5---55-555555----5---55-555555\3----33-333333----5----3-33-2-|
E|-00-3-0-33-333333-00-3-0-33-333333\1-00-11-111111-00-3-00-1-11-0-|
PM **   *    ****** **                 **    ****** **   **       

Chorus
E|-------------------------------------|
B|-------------------------------------|
G|-------------------------------------|
D|---8/12\11-------3-33/6-6------------|
A|-5-6/10\9--7/9-5-1-11/4-4-4-44---4/7-|
E|-3---------5/7-3----------2-22-0-2/5-|
Tap to rate this tab
# A B C D E F G H I J K L M N O P Q R S T U V W X Y Z