Song name
# A B C D E F G H I J K L M N O P Q R S T U V W X Y Z

Washya - Freeze Frame tab

-----------------------------------------------------------------------------
                            Freeze Frame - Washya
-----------------------------------------------------------------------------
Tuning: Standard (EBGDAE)
Intro
E|---------------------------------------------------------------------|
B|---------------------------------------------------------------------|
G|---------------------------------------------------------------------|
D|-----------------------------3h5p3-----------------------------3h5---|
A|-----------------7h8-5h7-3h5-----------------------7h8-5h7-3h5-----3-|
E|-0-0-0-0-0-0-0-0-------------------0-0-0-0-0-0-0-0-------------------|
PM * * * * * * * *                   * * * * * * * * 

Verses
E|-----------------------------------------------------------------|
B|-----------------------------------------------------------------|
G|-----------------------------------------------------------------|
D|---------------------------------5h7p5---------3h5p3---5---------|
A|-----3h5p3---5-----1h3p1---3-5h7-------7-7-3h5-------5-3-5555\33-|
E|-3h5-------5-3-1h3-------3-1-------------5---------------3333\11-|
PM *** ***** *   *** ***** *   *** ***** *   *** ***** *  

Chorus
E|-------------------------------------------------------|
B|-------------------------------------------------------|
G|-------------------------------------------------------|
D|-------------------------------------------------------|
A|-0h1p0-------2-0h1p0-------2-0h1p0-------2-0h1p0-------|
E|-------3p2p1-0-------3p2p1-0-------3p2p1-0-------3h5p3-|
                                      
Tap to rate this tab
# A B C D E F G H I J K L M N O P Q R S T U V W X Y Z