Song name
# A B C D E F G H I J K L M N O P Q R S T U V W X Y Z

Washya - Feed The Addiction tab

------------------------------------------------------------------------------
                          Feed The Addiction - Washya
------------------------------------------------------------------------------
Tuning: Drop D (DADGBE)
Intro
E|---------------------------------------------------|
B|---------------------------------------------------|
G|---------------------------------------------------|
D|---------------------------------------------------|
A|---------------------------------------------------|
D|-22-2222-22-22-22-2222-22-2222-22-2222-22-222-2-22-|
PM ** **** ** ** ** **** ** **** ** **** ** *** * ** 

Intro part 2 (Heavier)
E|------------------------------------------------------|
B|------------------------------------------------------|
G|------------------------------------------------------|
D|---------------------------------------------------44-|
A|-22-2222-22-22-22-2222-22-2222-22-2222-22-222-2-22-22-|
D|-22-2222-22-22-22-2222-22-2222-22-2222-22-222-2-22-22-|
PM ** **** ** ** ** **** ** **** ** **** ** *** * **  

Verses                                                1st  2nd 3rd  last 
E|---------------------------------------------------|----|---|----|------|
B|---------------------------------------------------|----|---|----|------|
G|---------------------------------------------------|----|---|----|------|
D|---------------------------------------------------|----|---|----|------|
A|---------------------------------------------------|-66-|-6-|-66-|-5/66-|
D|-00-0000-00-00-00-0000-00-0000-00-0000-00-000-0-00-|-66-|-6-|-66-|-5/66-|
PM ** **** ** ** ** **** ** **** ** **** ** *** * ** 

Chorus
E|-------------------------------------------------------------------|
B|-------------------------------------------------------------------|
G|-------------------------------------------------------------------|
D|-------------------------------------------------------------------|
A|-444-4444-444-444-4-444444\333-333333-3-3333-3-3333\111-1-111-11-1-|
D|-444-4444-444-444-4-444444\333-333333-3-3333-3-3333\111-1-111-11-1-|

E|-------------------------------------------|
B|---------6---------------------------------|
G|-6-5-3-5-----------------------------------|
D|-----------5-555555\444444\333333----------|
A|-------------333333\222222\111111-22-2-222-|
D|----------------------------------22-2-222-|
PM                                  ** * *** 

Verses                                                1st  2nd 3rd  last 
E|---------------------------------------------------|----|---|----|------|
B|---------------------------------------------------|----|---|----|------|
G|---------------------------------------------------|----|---|----|------|
D|---------------------------------------------------|----|---|----|------|
A|---------------------------------------------------|-66-|-6-|-66-|-5/66-|
D|-00-0000-00-00-00-0000-00-0000-00-0000-00-000-0-00-|-66-|-6-|-66-|-5/66-|
PM ** **** ** ** ** **** ** **** ** **** ** *** * ** 
Tap to rate this tab
# A B C D E F G H I J K L M N O P Q R S T U V W X Y Z