Song name
# A B C D E F G H I J K L M N O P Q R S T U V W X Y Z

Washya - Fargo tab

-----------------------------------------------------------------------------
                            Fargo - Washya
-----------------------------------------------------------------------------
Tuning: Drop D (DADGBE)
Intro
E|----------------------------------|
B|----------------------------------|
G|----------------------------------|
D|----------------------------------|
A|-2\1-xx-x-xx-2\1-xxx-xx-x-xx------|
D|-2\1-xx-x-xx-2\1-xxx-xx-x-xx-xx//-|

Main Riff/Chorus
E|--------------------------------------------------------------|
B|--------------------------------------------------------------|
G|--------------------------------------------------------------|
D|---------------555\44-----------------------777/8-------------|
A|-2\1-x-6\5-2-x-333\22-xx-2\1-x-444\22\11-xx-555/6-x-333/555/6-|
D|-2\1-x-6\5-2-x--------xx-2\1-x-444\22\11-xx-------x-333/555/6-|

Verses
E|---------------------------------------------------------------------|
B|---------------------------------------------------------------------|
G|---------------------------------------------------------------------|
D|---------------------------5---------------------------8-------------|
A|---------------------------3---------------------------6-x-3-5-6-5-3-|
D|-00-00-0-00--00-00-0-00--0---00-00-0-00--00-00-0-00--0---x-3-5-6-5-3-|
PM                                                           * * * * * 
Tap to rate this tab
 
# A B C D E F G H I J K L M N O P Q R S T U V W X Y Z