Song name
# A B C D E F G H I J K L M N O P Q R S T U V W X Y Z

Washya - Waiting For Justice tab

------------------------------------------------------------------------------
                        Waiting For Justice - Washya
------------------------------------------------------------------------------
Tuning: Drop D (DADGBE)
Intro (Play Slow) (Heavy Distortion)
E|--------------------------------------------------|
B|--------------------------------------------------|
G|-----------------------5-----------------------3--|
D|-----3-----5-----0-----5-----5-----2-----0-----3--|
A|---3-----5-----0-----0-3---5-----2-----0-----0-1--|
D|-3-----5-----0-----0-----5-----2-----0-----0------|

Verses
E|----------------------------------------------------------------|
B|----------------------------------------------------------------|
G|----------------------------------------------------------------|
D|-----3-----3-----5-----0-----0-----5-----5-----3-----3----------|
A|---3-----3-----5-----0-----0-----3-----3-----1-----1---11111-33-|
D|-3-----3-----5-----0-----0-----3-----3-----1-----1-----11111-33-|
PM * *   * *   * *   * *   * *   * *   * *   * *   * *

Chorus
E|-------------------------------------------------------|
B|---------3-----3---------------------------------------|
G|-----------2-----2---555/1010\9------------------------|
D|-------------0-----0-----------------------2p1---2p1---|
A|-66-55-3-------------333-8-8-\7-4-444\22\1-----2-----2-|
D|-66-55-3------------------------4-444\22\1-----------2-|

Verses
E|----------------------------------------------------------------|
B|----------------------------------------------------------------|
G|----------------------------------------------------------------|
D|-----3-----3-----5-----0-----0-----5-----5-----3-----3----------|
A|---3-----3-----5-----0-----0-----3-----3-----1-----1---11111-33-|
D|-3-----3-----5-----0-----0-----3-----3-----1-----1-----11111-33-|
PM * *   * *   * *   * *   * *   * *   * *   * *   * *
Tap to rate this tab
# A B C D E F G H I J K L M N O P Q R S T U V W X Y Z