Song name
# A B C D E F G H I J K L M N O P Q R S T U V W X Y Z

Washya - Worthy Adversary tab

-----------------------------------------------------------------------------
                           Worthy Adversary - Washya
-----------------------------------------------------------------------------
Tuning: Drop D 
Intro
E|---------------------------------------------------|
B|---------------------------------------------------|
G|-----------------------------2h3p2-----------------|
D|---------3h5-------------3h5---------------3h5-----|
A|-----3h5-----3h5-----3h5---------------3h5-----1h3-|
D|-000-------------000---------------000---------1h3-|
PM ***             ***               *** 

Part 2
E|-----------|
B|-----------|
G|-----------|
D|-----------|
A|-6-6-3-3-1-|
D|-6-6-3-3-1-|

Verses
E|---------------------------------------------|
B|---------------------------------------------|
G|---------------------------------------------|
D|----------5-555-5----------5-555-5-----------|
A|-666-3333-3-333-3-666-3333-3-333-3-666-333-1-|
D|-666-3333---------666-3333---------666-333-1-|
PM *** **** *   * * *** **** *   * * *** *** * 

Chorus
E|---------------------------------------------|
B|---------------------------------------------|
G|---------------------------------------------|
D|----------5-555-5----------5-555-5-----------|
A|-666-3333-3-333-3-666-3333-3-333-3-666-333-1-|
D|-666-3333---------666-3333---------666-333-1-|

Solo
E|-----------------------------------------------------------------|
B|-----------------------------------------------------------------|
G|--------------------------------------5~-5p3p2-------------------|
D|-3p22-3p22-3p22-3h5~-3p22-3p22-3p22-3----------5p3p2-------------|
A|-----------------------------------------------------5p3p2-5-3-2-|
D|-----------------------------------------------------------5-3-2-|
Tap to rate this tab
# A B C D E F G H I J K L M N O P Q R S T U V W X Y Z