Song name
# A B C D E F G H I J K L M N O P Q R S T U V W X Y Z

Washya - Were Not Alright tab

------------------------------------------------------------------------------
                We're Not Alright - Washya
------------------------------------------------------------------------------
Tuning: Drop D (DADGBE)
Intro
E|-------------------------------------------------|
B|-------------------------------------------------|
G|-------------------------------------------------|
D|-------------3---------------------3----33----33-|
A|-0-0-1-1-1h2---0-0-11--0-0-1-1-1h2------11----11-|
D|-0-0-1-1-------0-0-11--0-0-1-1-------00----00----|

Verses
E|-----------------------------------------------------------------------|
B|-----------------------------------------------------------------------|
G|-----------------------------------------------------------------------|
D|---------------------------------------------------------------3-33-33-|
A|-11111111111111h4\33333333333333/555555555555555h6\22222222222-1-11-11-|
D|-11111111111111h4\33333333333333/555555555555555h6\22222222222---------|
PM *************************************************************

Chorus
E|-----------------------------------------------------------------|
B|-----------------------------------------------------------------|
G|-----------------------------------------------------------------|
D|-----4-3-------------55555555/77777777---------------------------|
A|-0-1-2-1-3-0-3-5-6-5-33333333/55555555-7h8\555555555-3-5-3-5-3-0-|
D|-0-1-----3-0-3-5-6-5-------------------7h8\555555555-3-5-3-5-3-0-|

Solo 
E|--------------------------------------------------------------------------|
B|-9-9999b-11-11111111b-13-13131313b-14-1414b-15-1515b-17-1717b-18-1818b-20-|
G|--------------------------------------------------------------------------|
D|--------------------------------------------------------------------------|
A|--------------------------------------------------------------------------|
D|--------------------------------------------------------------------------|

Intro
E|-------------------------------------------------|
B|-------------------------------------------------|
G|-------------------------------------------------|
D|-------------3---------------------3----33----33-|
A|-0-0-1-1-1h2---0-0-11--0-0-1-1-1h2------11----11-|
D|-0-0-1-1-------0-0-11--0-0-1-1-------00----00----|

Chorus
E|-----------------------------------------------------------------|
B|-----------------------------------------------------------------|
G|-----------------------------------------------------------------|
D|-----4-3-------------55555555/77777777---------------------------|
A|-0-1-2-1-3-0-3-5-6-5-33333333/55555555-7h8\555555555-3-5-3-5-3-0-|
D|-0-1-----3-0-3-5-6-5-------------------7h8\555555555-3-5-3-5-3-0-|


Verses
E|-----------------------------------------------------------------------|
B|-----------------------------------------------------------------------|
G|-----------------------------------------------------------------------|
D|---------------------------------------------------------------3-33-33-|
A|-11111111111111h4\33333333333333/555555555555555h6\22222222222-1-11-11-|
D|-11111111111111h4\33333333333333/555555555555555h6\22222222222---------|
PM *************************************************************
Tap to rate this tab
# A B C D E F G H I J K L M N O P Q R S T U V W X Y Z