Song name
# A B C D E F G H I J K L M N O P Q R S T U V W X Y Z

Washya - Granitida tab

-----------------------------------------------------------------------------
                              Granitida - Washya
-----------------------------------------------------------------------------
Tuning: Drop D (DADGBE)
Intro
E|-------------------------------------------|
B|-------------------------------------------|
G|-----0-----------0-----------0-------------|
D|---4-------2---3-------3---5-------3-------|
A|-2-------2---1-------3---3-------5---3h5p2-|
D|-------2-----------3-----------5-----3h5p2-|

Verses
E|-----------------------------------------------------------------------|
B|-------------------------------------------------------------7b-9b-12b-|
G|-------------------------------------------------------------7b-9b-12b-|
D|-----------------------------------------------------------------------|
A|-333-33-33333-3-33-333/55-5-55555-5555-5555\2-2-2222-2-22222-----------|
D|-333-33-33333-3-33-333/55-5-55555-5555-5555\2-2-2222-2-22222-----------|
PM *** ** ***** * ** *** ** * ***** **** **** * * **** * ***** 

Chorus
E|-----------------------------------------------------------------|
B|-----------------------------------------------------------------|
G|-----------------------------------------------------------------|
D|-8888888--------555555\333333-----------------------555555/666---|
A|-6666666-333333-333333\111111-1-0-1-0000000-555/888-333333/444-2-|
D|---------333333---------------1-0-1-0000000-555/888------------2-|
Tap to rate this tab
# A B C D E F G H I J K L M N O P Q R S T U V W X Y Z