Song name
# A B C D E F G H I J K L M N O P Q R S T U V W X Y Z

Washya - Open Hanger tab

-----------------------------------------------------------------------------
                          Open Hanger - Washya
-----------------------------------------------------------------------------
Tuning: Drop D (EBGDAD)
Intro
E|-------------------------------------------------|
B|-------------------------------------------------|
G|-------------------------------------------------|
D|-2h3-------3p2---2h3-------3p2-------------------|
A|-----5-3h5-----3-----5-3h5-----1-1h3-1-1h3h4-3-1-|
D|---------------3---------------1-1h3-1-1h3h4-3-1-|
PM                               * *** * ***** * * 

Main Riff/Chorus
E|-------------------------------------------------|
B|-------------------------------------------------|
G|-------------------------------------------------|
D|-5/7/5-----------3/5\3-----------3/4---3/4-------|
A|-3/5\3-3-5-6-5-3-1/3\1-1-3-4-3-1-1/2-3-1/2-5-3-2-|
D|-------3-5-6-5-3-------1-3-4-3-1-----3-----5-3-2-|

Verses
E|---------------------------------------------------|
B|---------------------------------------------------|
G|---------------------------------------------------|
D|---------------------------------------------------|
A|--------3--------1--------5--------6-3h5h6p5p3-5-3-|
D|-000000---000000---000000---000000-------------5-3-|
PM ******   ******   ******   ****** 
Tap to rate this tab
 
# A B C D E F G H I J K L M N O P Q R S T U V W X Y Z