Song name
# A B C D E F G H I J K L M N O P Q R S T U V W X Y Z

Washya - Train Of Sorrow tab

-----------------------------------------------------------------------------
                       Train Of Sorrow - Washya
-----------------------------------------------------------------------------
Tuning: Standard (EBGDAE)
Intro
E|-------------------------------------------------------------------------|
B|-------------------------------------------------------------------------|
G|-------------------------------------------------------------------------|
D|----------------5/7-7/8-5/7---------------5/7\5-3/5\3/5------------------|
A|----------------3/5-5/6-3/5---------------3/5\3-1/3\1/3--------------3/5-|
E|-00000000000000-------------0000000000000---------------000000000000-1/3-|
PM **************             *************               ************

Verses
E|-------------------------------------------------|
B|-------------------------------------------------|
G|-------------------------------------------------|
D|-------------------------------------------------|
A|-----555-444-----222-----2-4-5-----555-444-4/5-2-|
E|-222---------2-4-----444-------222---------2/3-0-|
PM *** *** *** * * *** *** * * * *** *** ***  

Chorus
E|---------------------------------------------------------|
B|---------------------------------------------------------|
G|---------------------------------------------------------|
D|-------------777-------555-------------------9/10\9/10\9-|
A|-44444444444-555-7-777-333-5555-8888-44444-x-7/8-\7/8-\7-|
E|-22222222222-----5-555-----3333-6666-22222-x-------------|
                 
Tap to rate this tab
# A B C D E F G H I J K L M N O P Q R S T U V W X Y Z