Song name
# A B C D E F G H I J K L M N O P Q R S T U V W X Y Z

Washya - Timely Cravings tab

------------------------------------------------------------------------------
                      Timely Cravings - Washya
------------------------------------------------------------------------------
Tuning: Drop D (DADGBE)
Intro
E|--------------------------------|
B|--------------------------------|
G|--------------------------------|
D|--------------------------------|
A|-0000-00-00-000--0000-00-00-000-|
D|-0000-00-00-000--0000-00-00-000-|
PM **** ** ** ***  **** ** ** *** 

Main Riff/Chorus
E|---------------------------------------------------------|
B|---------------------------------------------------4-----|
G|-------------------------------------------------5-----5-|
D|-----------3---5-----------5---------3---------6-----6---|
A|---5---3-5-------3-5---5-----3-4-5-----5-6---3-----------|
D|-0---0-------0-------0---0---------0-------0-------------|
PM *   *       *       *   *         *       * 

Verses (Very Fast While Palm Muted)
E|--------------------------------------------------|
B|--------------------------------------------------|
G|--------------------------------------------------|
D|--------------------------------------------------|
A|-----3--5----2-3-5----3--5--2-3-5----3--5---2-3-5-|
D|-000030050000203050000300500203050000300500020305-|
PM **** ** **** * * **** ** ** * * **** ** *** * * 
Tap to rate this tab
 
# A B C D E F G H I J K L M N O P Q R S T U V W X Y Z