Song name
# A B C D E F G H I J K L M N O P Q R S T U V W X Y Z

Washya - Lido La Magra tab

------------------------------------------------------------------------------
                      Lido La Magra - Washya
------------------------------------------------------------------------------
Tuning: Drop D (DADGBE)
Intro
E|----------------------------------|-------------------------------|
B|----------------------------------|-------------------------------|
G|-------------3-------------3-5----|-------------------------------|
D|-------------3-------------3-5----|-------------5-------------5-7-|
A|-3-5-3-5-3-----3-5-3-5-3----------|-3-5-3-5-3-5-3-3-5-3-5-3-5-3-5-|
D|-----------5-------------5-----//-|-3-5-3-5-3-5---3-5-3-5-3-5-----|
PM * * * * * *   * * * * * *     

Verses
E|------------------------------|---------------|
B|------------------------------|---------------|
G|------------------------------|---------------|
D|------------------------------|---------------|
A|-11h2-11h2-1-1h2-11h2-11-11h2-|-2-1-4-3-5-6-3-|
D|-11h2-11h2-1-1h2-11h2-11-11h2-|-2-1-4-3-5-6-3-|
PM **** **** * *** **** ** ****   * * * *     * 

Chorus
E|---------------------------------------------------------------|
B|---------------------------------------------------------------|
G|---------------------------------------------------------------|
D|---------------------------------------------------------------|
A|-22-44-0-1-1-----1-1-----0-2-3-0-1-3-0-3-44-2--0-22-----22-----|
D|-22-44-0-1-1-5b~-1-1-5b~-0-2-3-0-1-3-0-3-44-2--0-22-6b~-22-6b~-|
PM       * * *     * *                           * **     ** 
Tap to rate this tab
 
# A B C D E F G H I J K L M N O P Q R S T U V W X Y Z