Song name
# A B C D E F G H I J K L M N O P Q R S T U V W X Y Z

Washya - Foregone Conclusion tab

-----------------------------------------------------------------------------
                       Foregone Conclusion - Washya
-----------------------------------------------------------------------------
Tuning: Standard (EBGDAE)
Intro
E|----------------------------------0-|
B|----------------------------------0-|
G|------------------7---------------0-|
D|---0h7h9~---0h7h9-------7-----9-7-9-|
A|-2--------2---------7h9---2-7-----9-|
E|-0--------0---------------0-------7-|

Verses
E|-7-------5---------2--------------------1---------|
B|-7-------5---------2--------------------2---------|
G|-8-8h9p8\6-6-4---4-3-------2-/6p5-1---1h3---------|
D|-9-------7-----6---4-----2-2--------3---3---------|
A|-9-------7---------4---2---0------------1-------2-|
E|-7-------5---------2-4--------------------3p2p0-0-|


Chorus
E|--------------------------------------------|
B|--------------------------------------------|
G|-2---------7-8-10---------------------------|
D|-2-2-5-7-3-7-8-10-777/8\4-----2---2-4-3-4-7-|
A|-0-2-5-7-3-5-6-8--777/8\4-2-4---4---4-3-4-7-|
E|---0-3-5-1--------555/6\2-----------2-1-2-5-|
PM                          * * * * *    

Guitar Solo
E|-------------------------------------6-5h6h8~-8p6p5h6h8/10p8p7h10p8p7-|
B|-------------------------------6-5-7----------------------------------|
G|-8-8~-8p7---7h8p7-5---5-7-7~-7----------------------------------------|
D|----------9---------7-------------------------------------------------|
A|----------------------------------------------------------------------|
E|----------------------------------------------------------------------|

E|---------------------------------------------------12p11----------------|
B|-10p8p7h10p8p7---------------12p10p9h12p10p9/11h13-------13p11----11h13-|
G|---------------10p8p7h10p8p7-----------------------------------12-------|
D|------------------------------------------------------------------------|
A|------------------------------------------------------------------------|
E|------------------------------------------------------------------------|

E|--------------------12----------------12----------------12h15p12h15p12h15-|
B|-12b-14b-16bp15~-15----15-12----12-15----15-12----12-15-------------------|
G|-----------------------------14----------------14-------------------------|
D|--------------------------------------------------------------------------|
A|--------------------------------------------------------------------------|
E|--------------------------------------------------------------------------|

E|-12h14p12h14p12h14p12h15p12h15p14p12h15h12h15p14p12-12\-|
B|--------------------------------------------------------|
G|--------------------------------------------------------|
D|--------------------------------------------------------|
A|--------------------------------------------------------|
E|--------------------------------------------------------|

Chorus
E|--------------------------------------------|
B|--------------------------------------------|
G|-2---------7-8-10---------------------------|
D|-2-2-5-7-3-7-8-10-777/8\4-----2---2-4-3-4-7-|
A|-0-2-5-7-3-5-6-8--777/8\4-2-4---4---4-3-4-7-|
E|---0-3-5-1--------555/6\2-----------2-1-2-5-|
PM                          * * * * *    
Tap to rate this tab
# A B C D E F G H I J K L M N O P Q R S T U V W X Y Z