Song name
# A B C D E F G H I J K L M N O P Q R S T U V W X Y Z

Washya - Family Love tab

------------------------------------------------------------------------------
                 Family Love - (Dedication Too My Granddad)  
------------------------------------------------------------------------------
Tuning: Standard (EBGDAE)
Intro
E|-3-333-3-3-333-3-0-000-0-0-0-000-0-0-|
B|-3-333-3-3-333-3-1-111-1-1-2-222-2-2-|
G|-0-000-0-0-000-0-0-000-0-0-2-222-2-2-|
D|-0-000-0-0-000-0-2-222-2-2-2-222-2-2-|
A|-2-222-2-2-222-2-3-333-3-3-0-000-0-0-|
E|-3-333-3-3-333-3-0-000-0-0-0-000-0-0-|

Verses
E|-------2-------2---------------------------------------------|
B|---3-----3-3-----3-------1-------1---------------------------|
G|-----2-------2-------------0-------0-------------------------|
D|---------------------2-------2-----------2-------2---4-------|
A|-----------------------3-------3-----2-----2-2-----2---4---4-|
E|-0-----------------0-------------------0-------0---------2---|

Chorus
E|---------------------------------------------------------------|
B|-------------------1-1-----------------------------------------|
G|-------------------0-0-----------------------------------------|
D|-------------------2-2-----------------6-5-3---3-5-55-55-------|
A|-------22-22-----2-3-3---3-2-0-33-33---------5-----33-33-4-3-2-|
E|-0-2-3-00-00-0-3-------0-------11-11-3-------------------2-1-0-|
PM * * *       * * *     * * * *       * * * * * * *   
Tap to rate this tab
# A B C D E F G H I J K L M N O P Q R S T U V W X Y Z