Song name
# A B C D E F G H I J K L M N O P Q R S T U V W X Y Z

Washya - Intruders tab

-----------------------------------------------------------------------------
                       Intruders - Washya
-----------------------------------------------------------------------------
Tuning: Standard (EBGDAE)
Intro
E|---------------------------------------|----------|
B|---------------------------------------|----------|
G|---------------------------------------|----------|
D|-9999-9999-9999-6-7-7777-7777-7777-4-5-|-9\8------|
A|-7777-7777-7777-4-5-5555-5555-5555-2-3-|-7\6-5/7--|
E|---------------------------------------|-----3/5--|
   <          play 3 times             >

Verses
E|------------------------------------------------------------------------|
B|------------------------------------------------------------------------|
G|------------------------------------------------------------------------|
D|------------------------------6-5-3-5-------------------------6-5-------|
A|-5-55-5-5-55-555-5-555-55-5-5---------5-55-555-55-5-555-5-555-----3-5-2-|
E|-3-33-3-3-33-333-3-333-33-3-3---------3-33-333-33-3-333-3-333---------0-|
PM * ** * * ** *** * *** ** * *         * ** *** ** * *** * ***         *

Chorus
E|---------------------------------------------------------------------|
B|---------------------------------------------------------------------|
G|---------------------------------------------------------------------|
D|---7-6-------5-8-7----------------------------0h2p0-----2-22---------|
A|-5-5-4-5/8\7-3-6-5-7-777\6-666\5-555\-2-3-4-2-------2p0-0-00-5-7-5-2-|
E|-3-----3/6\5-------5-555\4-444\3-333\-0-1-2-0----------------3-5-3-0-|
Tap to rate this tab
# A B C D E F G H I J K L M N O P Q R S T U V W X Y Z