Song name
# A B C D E F G H I J K L M N O P Q R S T U V W X Y Z

Washya - Rise And Fall Of The Noble Warrior tab

------------------------------------------------------------------------------
                  Rise And Fall Of The Noble Warrior - Washya
------------------------------------------------------------------------------
Tuning: Standard (EBGDAE)
Intro
E|-----------------------------------------------------------------------|
B|-----------------------------------------------------------------------|
G|-----------------------------------------------------------------------|
D|-----------------------------5/7-7/8-5/7-------------------------------|
A|-----------------------------3/5-5/6-3/5---------------------3h5-2h3---|
E|-000-000-000-000-000-000-000-------------000-000-000-000-000---------5-|
PM *** *** *** *** *** *** ***             *** *** *** *** *** 

Chorus/Main Riff
E|-------------------------------------------|
B|-------------------------------------------|
G|-------------------------------------------|
D|--------------------0h1--------------------|
A|-2h3-7--2h3-3-2h3-2-----3p2p0---222-22-345-|
E|-----5------1-----0-----------3-000-00-123-|

Verses
E|-----------------------------------------------|
B|-----------------------------------------------|
G|-----------------------------------------------|
D|-----------------------------------------------|
A|-----------------------------------------------|
E|-000-5-4-2-000-5-4-2-000-5-4-2-000-5-4-2/7-5-4-|
PM ***       ***       ***       ***        
Tap to rate this tab
# A B C D E F G H I J K L M N O P Q R S T U V W X Y Z