Song name
# A B C D E F G H I J K L M N O P Q R S T U V W X Y Z

Washya - Eternal Damnation tab

------------------------------------------------------------------------------
                      Eternal Damnation - Washya
------------------------------------------------------------------------------
Tuning: Drop D (DADGBE)
Intro
E|------------------------------------------------|
B|------------------------------------------------|
G|------------------------------------------------|
D|------------------------------------------------|
A|-2222-2-2-2--2222-2-2-2--2222-2-2-2--2222-2-2-2-|
D|-2222-2-2-2--2222-2-2-2--2222-2-2-2--2222-2-2-2-|
PM **** * * *  **** * * *  **** * * *  **** * * * 

Intro Guitar 2
E|---------------------|
B|---------------------|
G|-----------5b--------|
D|-----------5b--------|
A|-00-----00----00-4\3-|
D|-00-3b~-00----00-4\3-|
PM **     **    ** 

Verses
E|---------------------------------------------------------------|
B|---------------------------------------------------------------|
G|-----------------3~-----------------------------------5~-------|
D|-0-----5-----3------3-----2-----2---3-0-----7-----5------5-2-0-|
A|-0---3-----1---1----3-2h3---2h3---3---0---5-----3---3----5-2-0-|
D|-0-3-----1----------3-----------------0-5-----3----------5-2-0-|

Verses Guitar 2
E|-----0-------0-------0-------2-----22-22-|
B|---3---3---3---3---3---3---3---3---33-33-|
G|-0-------0-------0-------0-------2-22-22-|
D|-----------------------------------------|
A|-----------------------------------------|
D|-----------------------------------------|

Chorus
E|-----------------------------------------------------------------------|
B|-----------------------------------------------------------------------|
G|---------4---------------------4---------------------------------------|
D|-----4---------2-----------4---------5-4-2-----------------------------|
A|-------2---2h4---5-4-2-------2---2h4-------4-2-4-444/7-777-3-5-3-2-1-0-|
D|-2-2-----------------2-2-2---------------------4-444/7-777-3-5-3-2-1-0-|
PM * *                   * *                     *           * * * * *  
Tap to rate this tab
 
# A B C D E F G H I J K L M N O P Q R S T U V W X Y Z