Song name
# A B C D E F G H I J K L M N O P Q R S T U V W X Y Z

Washya - Lost Case tab

-----------------------------------------------------------------------------
                       Lost Case - Washya
-----------------------------------------------------------------------------
Tuning: Standard (EBGDAE)
Intro
E|-----------------------------------------------------------------|
B|-----------------------------------------------------------------|
G|-----------------------------------------------------------------|
D|-----5-4-------------5-4-------------6-5-------------4-5---------|
A|---------2-5-4-----------2-5-4-----------3-6-5-----------7-5---7-|
E|-222-----------2-222-----------2-222-----------3-222---------7-5-|
PM ***             ***             ***             *** 


Verses
E|----------------------------------------------------------------|
B|----------------------------------------------------------------|
G|----------------------------------------------------------------|
D|----------3p2p0----------------6-5-3----------------5-4-3-------|
A|----------------3p2p0----------------4-3-1----------------6-5---|
E|-22222222-------------22222222-------------22222222-----------3-|
PM ********             ********             ********

Chorus
E|------------------------------------------------------------------------|
B|------------------------------------------------------------------------|
G|------------------------5---------------------------------7-------------|
D|------------------3-2---------2-3-2-----------------5-4---------4-5-4---|
A|-22222--22222-3-5-----3---3-5-------22222-22222-5-7-----5---5-7-------7-|
E|-00000--00000-----------------------00000-00000-----------------------5-|
PM *****  *****                       ***** ***** 
Tap to rate this tab
# A B C D E F G H I J K L M N O P Q R S T U V W X Y Z