Song name
# A B C D E F G H I J K L M N O P Q R S T U V W X Y Z

Washya - Powerhouse tab

------------------------------------------------------------------------------
                             Powerhouse - Washya
------------------------------------------------------------------------------
Tuning: Drop D (DADGBE)
Intro
E|------------------------------------------------------|
B|------------------------------------------------------|
G|------------------------------------------------------|
D|------------------------------------------------------|
A|-3-555-6-555-5-444-4-333-3-555-6-555-5-444-4-333-0-1~-|
D|-3-555-6-555-5-444-4-333-3-555-6-555-5-444-4-333-0-1~-|

Main Riff/Chorus
E|---------------------------------|
B|---------------------------------|
G|---------------------------------|
D|---------------------------------|
A|-0-3-5-0-6-5-5-4-3-5-6-5-4-3-0-1-|
D|-0-3-5-0-6-5-5-4-3-5-6-5-4-3-0-1-|

Verses
E|-------------------------------------------------------------------------|
B|-------------------------------------------------------------------------|
G|-------------------------------------------------------------------------|
D|-------------------------------------------------------------------------|
A|------3h5------6p5p3------3h5------------3h5------6p5p3------1-3-4-3-1-0-|
D|-0-00-----0-00-------0-00-----5p4p3-0-00-----0-00-------0-00-1-3-4-3-1-0-|
PM * **     * **       * **           * **     * **       * ** 
Tap to rate this tab
 
# A B C D E F G H I J K L M N O P Q R S T U V W X Y Z