Song name
# A B C D E F G H I J K L M N O P Q R S T U V W X Y Z

Washya - Pension Funded tab

------------------------------------------------------------------------------
                       Pension Funded - Washya
------------------------------------------------------------------------------
Tuning: Drop D (DADGBE)
Intro
E|-----------------------------------|
B|-----------------------------------|
G|-----------------------------------|
D|-----------------------------------|
A|-5555-3-1-3--5555-3-1-3--1-3-5-6-5-|
D|-5555-3-1-3--5555-3-1-3--1-3-5-6-5-|

Verses
E|----------------------------------------------------|
B|----------------------------------------------------|
G|----------------------------------------------------|
D|----------------------------------------------------|
A|-6666-3-5-3--6666-3-5-3-1--6666-3-5-3--6666-3-5-3-1-|
D|-6666-3-5-3--6666-3-5-3-1--6666-3-5-3--6666-3-5-3-1-|
PM **** * * *  **** * * * *  **** * * *  **** * * * * 

Chorus
E|-------------------------------------------------------------|
B|-------------------------------------------------------------|
G|-------------------------------------------------------------|
D|-------------------------------55555555/88888888-------------|
A|----55555555/88888888\33333333-33333333/66666666-666-5-6-5-3-|
D|-//-55555555/88888888\33333333-------------------666-5-6-5-3-|
Tap to rate this tab
# A B C D E F G H I J K L M N O P Q R S T U V W X Y Z