Song name
# A B C D E F G H I J K L M N O P Q R S T U V W X Y Z

Washya - Angels Dont Kill Demons tab

-----------------------------------------------------------------------------
                Angel's Don't Kill Demons - Washya
-----------------------------------------------------------------------------
Tuning: Drop C (DAFCGC)
Intro
D|--------------------------------------------------------------|
A|---------------------------8--------------------------8-7-----|
F|-------------------9---------9----------------------------7-5-|
C|---------------------9----------------------------7-9---------|
G|-----------------------7-9------------------------------------|
C|-0000-00-0-0000-00-------------0000-00-0-0000-00--------------|
PM **** ** * **** **             **** ** * **** **  

Verses
D|------------------------------------------------------------|
A|----------------------------------------------------8-7-----|
F|--------------------------------------------------------9---|
C|-------------------999-77-9-------------------8-7-----------|
G|-------------------777-55-7-----------------------9---------|
C|-2222-22-2-2222-22----------2222-22-2-2222-22---------------|
PM **** ** * **** **          **** ** * **** ** 

Chorus
D|------------------------------------------------------------------------|
A|------------------------------------------------------------------------|
F|-----------------------------------------------3------------------------|
C|-------------------------------------------1----------------------------|
G|-4444-2-4/7-x-0-222-3-x-1111-1-1-1-x-0h1h2---2---555-7-8-7-x-1111-1-1-1-|
C|-4444-2-4/7-x-0-222-3-x-1111-1-1-1-x-------------555-7-8-7-x-1111-1-1-1-|
Tap to rate this tab
 
# A B C D E F G H I J K L M N O P Q R S T U V W X Y Z