Song name
# A B C D E F G H I J K L M N O P Q R S T U V W X Y Z

Washya - Snap This tab

-----------------------------------------------------------------------------
               Snap This - Washya
-----------------------------------------------------------------------------
Tuning: Drop D (DADGBE)
Intro
E|-------------------------------------|
B|-------------------------------------|
G|-------------------------------------|
D|-------------------------------5\4---|
A|-1-1-0--1-1-0-------1-1-0--1-1-3\2-0-|
D|-1-1-0--1-1-0--//xx-1-1-0--1-1-----0-|x 3 

Verses
E|------------------------------------------------------------|
B|------------------------------------------------------------|
G|------------------------------------------------------------|
D|---------------------------------------------------------5*-|
A|------0-00-321-------0-00-321------0-00-321------0-00-32----|
D|-//xx-0-00-321--//xx-0-00-321-//xx-0-00-321-//xx-0-00-32----|

Chorus
E|-----------------------------------------------------------------|
B|-----------------------------------------------------------------|
G|-----------------------------------------------------------------|
D|-----------888\6-6666------101010\8-8888-------------------333-2-|
A|-0-00-3-22-666\4-4444-2-22-8-8-8-\6-6666-0-4-0-3-0-4-0-3-0-111-0-|
D|-0-00-3-22------------2-22---------------0-4-0-3-0-4-0-3-0-------|
PM                                         * * * * * * * * * 

Solo
E|----8h10p8----8h10p8----12~------13h15p13-----13h15p13-----16b~\-|
B|-9b--------9b--------9b-----/14b----------14b----------14b-------|
G|-----------------------------------------------------------------|
D|-----------------------------------------------------------------|
A|-----------------------------------------------------------------|
D|-----------------------------------------------------------------|


Verses
E|------------------------------------------------------------|
B|------------------------------------------------------------|
G|------------------------------------------------------------|
D|---------------------------------------------------------5*-|
A|------0-00-321-------0-00-321------0-00-321------0-00-32----|
D|-//xx-0-00-321--//xx-0-00-321-//xx-0-00-321-//xx-0-00-32----|

Chorus
E|-----------------------------------------------------------------|
B|-----------------------------------------------------------------|
G|-----------------------------------------------------------------|
D|-----------888\6-6666------101010\8-8888-------------------333-2-|
A|-0-00-3-22-666\4-4444-2-22-8-8-8-\6-6666-0-4-0-3-0-4-0-3-0-111-0-|
D|-0-00-3-22------------2-22---------------0-4-0-3-0-4-0-3-0-------|
PM                                         * * * * * * * * * 
Tap to rate this tab
# A B C D E F G H I J K L M N O P Q R S T U V W X Y Z