Song name
# A B C D E F G H I J K L M N O P Q R S T U V W X Y Z

Washya - Insipid tab

-----------------------------------------------------------------------------
               Insipid - Washya
-----------------------------------------------------------------------------
Tuning: Standard (EBGDAE)
Intro
E|-------------------------------------------------------------------------|
B|-------------------------------------------------------------------------|
G|-------------------------5-7---------------------------------7-5---------|
D|-------------------------5-7-5h7p5---------------------------7-5-3h5p3---|
A|-2-2-2-2-2-2-2-2-2-2-2-2-3-5-------7-2-2-2-2-2-2-2-2-2-2-2-2-5-3-------5-|
E|-0-0-0-0-0-0-0-0-0-0-0-0-------------0-0-0-0-0-0-0-0-0-0-0-0-------------|
PM * * * * * * * * * * * *             * * * * * * * * * * * * 

Verses
E|-----------------------------------------------------------|
B|-----------------------------------------------------------|
G|-------------------------------------------------------5---|
D|-------------------1-------------------1---------------5-5-|
A|-2-2-2-2-2-3-5-1-3-----2-2-2-2-2-3-5-3-------2-2-2-2-2-3-5-|
E|-0-0-0-0-0-1-3-------3-0-0-0-0-0-1-3-----3-2-0-0-0-0-0---3-|
PM * * * * *     * * * * * * * * *     * * * * * * * * *  

Chorus
E|-----------------------------------------------------------------------|
B|-----------------------------------------------------------------------|
G|-----------5---5/8-------------------8\5-------------------------------|
D|-----------5---5/8-8-7-5-7-----------8\5-3h5-----3-3-3-3-5/7-----------|
A|-----------3---3/6-------------------6\3-----6-5-3-3-3-3-5/7---------2-|
E|-0-0-0-0-0---0-------------0-0-0-0-0-------------1-1-1-1-3/5-6-5-3-5-0-|
PM * * * * *   *             * * * * *             * * * *     * * * * 
Tap to rate this tab
# A B C D E F G H I J K L M N O P Q R S T U V W X Y Z