Song name
# A B C D E F G H I J K L M N O P Q R S T U V W X Y Z

Washya - Last Crusade tab

-----------------------------------------------------------------------------
                        Last Crusade - Washya
-----------------------------------------------------------------------------
Tuning: Drop C (DAFCGC)
Intro
D|-------------------------------------------------|
A|-------------88----------8-----8-----------8-----|
F|-99-------------99---------------9-----9-------9-|
C|----99----99----------99-----9-------9-------9---|
G|-------77----------77------7-------7-----7-------|
C|-------------------------------------------------|x 3 
PM ** ** ** ** ** ** ** ** * * * * * * * * * * * *  

Part 2
D|-----------------11~-|
A|---------------9-----|
F|-----------9/7-------|
C|-----5/--9-----------|
G|---3---7-------------|
C|-3-------------------|

Verses
D|---------------------------------------------------------|
A|---------------------------------------------------------|
F|---------------------------------------------------------|
C|---------------------------------------------------------|
G|-----------5h6-3h5----------7h8-5h7----------5h6-3h5-1h3-|
C|-//xx-0000---------1h3-0000---------3h5-0000---------1h3-|
PM      ****             ****             ****              

Chorus/Main Riff
D|--------------------------------------------------------------------------|
A|--------------------------------------------------------------------------|
F|--------------------------8-----------------------------------2-----------|
C|----------------6-666---6---6-------------------------------3---3---------|
G|-4444-2-4/66666-4-444-4-------4-444-22/555-55-5-2-3-111-1-2-------222-001-|
C|-4444-2-4/66666-----------------444-22/555-55-5-2-3-111-1---------222-001-|
PM                      * * * * *                           * * * *   
Tap to rate this tab
# A B C D E F G H I J K L M N O P Q R S T U V W X Y Z