Song name
# A B C D E F G H I J K L M N O P Q R S T U V W X Y Z

Washya - The Returned tab

------------------------------------------------------------------------------
          The Returned - Washya
------------------------------------------------------------------------------
Tuning: Standard (EBGDAE)
Intro
E|-----------------------------------------------------------|
B|-----------------------------------------------------------|
G|-----------------------------------------------------------|
D|-----------------------------------------------------------|
A|-2222222222223-2222222222223-2222222222223-222222222222875-|
E|-0000000000001-0000000000001-0000000000001-000000000000653-|
PM ************  ************  ************  ************ 

Main Riff/Chorus
E|----------------------------------------------------------------------|
B|----------------------------------------------------------------------|
G|-9-----9--------------------------------5-----5-----------------------|
D|---9-------9-7----------------------------5-------5-------------------|
A|-----7---7-----9-8-7------------------------3---3---6-5-3-------------|
E|---------------------10-7-0000000000000-------------------5-6-5-00000-|
PM                          *************                         ***** 

Verses
E|------------------------------------------------------|
B|------------------------------------------------------|
G|------------------------------------------------------|
D|------------------------------------------------------|
A|-444444444444444/77777777777\666666666666\44444444444-|
E|-222222222222222/55555555555\444444444444\22222222222-|
PM *************** *********** ************ *********** 
Tap to rate this tab
# A B C D E F G H I J K L M N O P Q R S T U V W X Y Z