Song name
# A B C D E F G H I J K L M N O P Q R S T U V W X Y Z

Washya - Better Now Forever tab

------------------------------------------------------------------------------
                Better Now Forever - Washya
------------------------------------------------------------------------------
Tuning: Drop D (DADGBE)
intro
E|------------------------------|
B|------------------------------|
G|------------------------------|
D|------------------------------|
A|-0-0-1-00--0-0-1-00--0-0-1-00-|
D|-0-0-1-00--0-0-1-00--0-0-1-00-|

Main Riff
E|---------------------------------------------------------------------|
B|---------------------------------------------------------------------|
G|---------------------------------------------------------------------|
D|---------------------------------------------------------------------|
A|-0--0-0-0-0h3-0h1-0h3-0--0-0-0-0h5-3-0-3-5-3-0--0-0-0--0h3-2-0h2-0h2-|
D|-0--0-0-0-0h3-0h1-0h3-0--0-0-0-0h5-3-0-3-5-3-0--0-0-0--0h3-2-0h2-0h2-|


Verses
E|-------------------------------------------------|
B|-------------------------------------------------|
G|-------------------------------------------------|
D|---------------2---------------4-----------------|
A|---3---1---2h3-----5---3---4h5-----------------2-|
D|-0---0---0-------0---0---0-------0-3-0-5-0-2h3p2-|
PM *   *   *       *   *   *       * * * * * **** 
Tap to rate this tab
# A B C D E F G H I J K L M N O P Q R S T U V W X Y Z