Song name
# A B C D E F G H I J K L M N O P Q R S T U V W X Y Z

Washya - Prolonged Indigestion tab

------------------------------------------------------------------------------
                   Prolonged Indigestion - Washya
------------------------------------------------------------------------------
Tuning: Standard (EBGDAE)
Intro
E|---------------------------------------------------------------------|
B|---------------------------------------------------------------------|
G|---------------------------------------------------------------------|
D|---------------------------------------------------------------------|
A|-----------3h5-5h6-3h5----------3h5-5h6-1h3----------3h5-1h3-0h1p0---|
E|-000000000-------------00000000-------------00000000---------------3-|
PM *********             ********             ******** 

Verses
E|-----------------------------------------|
B|-----------------------------------------|
G|-----------------------------------------|
D|-5---8---7---3---55/7---5---3---8---55/7-|
A|-3---6---5---1---33/5---3---1---6---33/5-|
E|---0---0---0---0------0---0---0---0------|
PM   *   *   *   *      *   *   *   * 

Chorus
E|---------------------------------------------------------------|
B|---------------------------------------------------------------|
G|---------------------------------------------------------------|
D|---------------------------------------------------------------|
A|-444-22-444-22-4444-22-4-44-22-555-44-555-44-55587-22-2-222-22-|
E|-222-00-222-00-2222-00-2-22-00-333-22-333-22-33365-00-0-000-00-|
PM                                                   ** * *** ** 
Tap to rate this tab
# A B C D E F G H I J K L M N O P Q R S T U V W X Y Z