Song name
# A B C D E F G H I J K L M N O P Q R S T U V W X Y Z

Washya - King Of Queens tab

-----------------------------------------------------------------------------
                       King Of Queens - Washya
-----------------------------------------------------------------------------
Tuning: Drop D (DADGBE)
Intro
E|-------------------------------------|
B|-------------------------------------|
G|-------------------------------------|
D|-------------------------------------|
A|-0-0-3-0-6-3-0-3-5-0-3-6-0-5-3-0-3-6-|
D|-0-0-3-0-6-3-0-3-5-0-3-6-0-5-3-0-3-6-|
PM * * * * * * * * * * * * * * * * * * 

Verses
E|--------------------|
B|--------------------|
G|--------------------|
D|---------------5554-|
A|-0-0-6-3-0-3-5-3332-|
D|-0-0-6-3-0-3-5------|
PM * * * * * * * 

Chorus
E|-----------------------------------------------------------------------|
B|-----------------------------------------------------------------------|
G|-----------------------------------------------------------------------|
D|-----------------------------------------------------------------------|
A|-0-0-0-0-0-0-0-3-3-3-3-3-3-3-6-6-6-6-6-6-6-0-0-0-0-0-0-0-5-5-5-3-3-6-6-|
D|-0-0-0-0-0-0-0-3-3-3-3-3-3-3-6-6-6-6-6-6-6-0-0-0-0-0-0-0-5-5-5-3-3-6-6-|
Tap to rate this tab
# A B C D E F G H I J K L M N O P Q R S T U V W X Y Z