Song name
# A B C D E F G H I J K L M N O P Q R S T U V W X Y Z

Washya - Part Ways tab

------------------------------------------------------------------------------
                    Part Ways - Washya
------------------------------------------------------------------------------
Tuning: Drop D (DADGBE)
Intro
E|---------------------------------|
B|-----------------------------2---|
G|-----------------2-----2---2-----|
D|-----4-----4---4-----4---4-------|
A|---2-----2---2-----2-------------|
D|-2-----2-------------------------|x3 

Main Riff/Chorus (Play Fast)
E|----------------------------------------------|
B|----------------------------------------------|
G|----------------------------------------------|
D|----------------------------------------555/7-|
A|-0-3-5-0-6-5-0-3-5-0-11/3-0-6-5-0-3-5-0-333/5-|
D|-0-3-5-0-6-5-0-3-5-0-11/3-0-6-5-0-3-5-0-------|

Verses
E|---------------------------------------------------------|
B|---------------------------------------------------------|
G|---------------------------------------------------------|
D|---------------------------------------------------------|
A|-0-2-2---3p2p0-------3-3---5p3p0-5-3-5-5---3p2p0-3-1-0-0-|
D|-0-2-2-0-------3-5-0-3-3-0-------5-3-5-5-0-------3-1-0-0-|
PM               * * *     *               *            

Lead
E|-----------------------------------------------|
B|-----------------------------------------------|
G|-9999-777-4444-555/10101010-888-5555-666-------|
D|-----------------------------------------44h6~-|
A|-----------------------------------------------|
D|-----------------------------------------------|
Tap to rate this tab
 
# A B C D E F G H I J K L M N O P Q R S T U V W X Y Z