Song name
# A B C D E F G H I J K L M N O P Q R S T U V W X Y Z

Washya - The Art Of Deception tab

-----------------------------------------------------------------------------
               The Art Of Deception - Washya
-----------------------------------------------------------------------------
Tuning: Standard (EBGDAE)
Intro
E|-------------------|
B|-------------------|
G|-------------------|
D|-2---2-2---1-2---0-|
A|-2---2-2---1-2---0-|
E|-0-0---0-0---0-0---|

Main Riff
E|------------------------------------------------------------------|
B|------------------------------------------------------------------|
G|------------------------------------------------------------------|
D|------------4p3---4p3---4p3---2p1---2p1---2p1---4p3---4p3---4p3---|
A|----------------4-----4-----4-----2-----2-----2-----4-----4-----4-|
E|-0-22-22-22-------------------------------------------------------|
PM * ** ** ** *** * *** * *** * *** * *** * *** * *** * *** * *** *  

Verses
E|---------------------------------------------------------------------|
B|---------------------------------------------------------------------|
G|---------------------------------------------------------------------|
D|---------------------------------------------------------------------|
A|-----------------------------6p5---6p5---6p5h6p5---6p5---6p5h6p5-5-3-|
E|-6p5p3-6p5p3-6p5-6p5p3-6p5p3-----3-----3---------3-----3---------3-1-|
PM ***** ***** *** ***** ***** *** * *** * ******* * *** * ******* 
Tap to rate this tab
# A B C D E F G H I J K L M N O P Q R S T U V W X Y Z