Song name
# A B C D E F G H I J K L M N O P Q R S T U V W X Y Z

Washya - Drunken Haze tab

-----------------------------------------------------------------------------
                Drunken Haze - Washya
-----------------------------------------------------------------------------
Tuning: Drop D (DADGBE)
Intro
E|-------------2---------------1---------------5-3-2-|
B|-----3-----3---3-----3-----1---1-----1-----2-------|
G|---2---2-----------2---2-----------1---1-----------|
D|---------------------------------------------------|
A|---------------------------------------------------|
D|-0-------0-------0-------0-------0-------0---------|
PM *       *       *       *       *       * 

Part 2/Verses
E|-----------------------------------------------------------|
B|-----------------3-----------------------------------------|
G|---------------2---2-------------------------/7-7h9h10p9p7-|
D|-------------------------4---------------------------------|
A|-5-555-2-222-0-------0-2---2-0-2-222-5-555-0---------------|
D|-5-555-2-222-0-------0-------0-2-222-5-555-0---------------|

Chorus
E|--------------------------------------------------------------------|
B|--------------------------------------------------------------------|
G|--------------------------------------------------------------------|
D|---------------------------------------------------------5555-5-----|
A|-5-5555-2-2222-0-0000-2-2222/8-8888-5-5555-7-7777-3-3333-3333-3-1/3-|
D|-5-5555-2-2222-0-0000-2-2222/8-8888-5-5555-7-7777-3-3333--------1/3-|
Tap to rate this tab
# A B C D E F G H I J K L M N O P Q R S T U V W X Y Z