Song name
# A B C D E F G H I J K L M N O P Q R S T U V W X Y Z

Washya - Dreamer tab

-----------------------------------------------------------------------------
               Dreamer - Washya
-----------------------------------------------------------------------------
Tuning: Drop D (DADGBE)
Intro Part 1
E|-----------------------------------------------------------------|
B|-----------------------------------------------------------------|
G|-----------------------------------------------------------------|
D|-----------------------------------------------------------------|
A|-----------------------------------------------------------------|
D|-5-5-5-5-5-5-5-5-2-2-2-2-2-2-2-2-8-8-8-8-8-8-8-8-5-5-5-5-5-5-5-5-|
PM * * * * * * * * * * * * * * * * * * * * * * * * * * * * * * * * 

Intro Part 2
E|-----------------------------------------------------------------|
B|-----------------------------------------------------------------|
G|-----------------------------------------------------------------|
D|-----------------------------------------------------------------|
A|-5-5-5-5-5-5-5-5-2-2-2-2-2-2-2-2-8-8-8-8-8-8-8-8-5-5-5-5-5-5-5-5-|
D|-5-5-5-5-5-5-5-5-2-2-2-2-2-2-2-2-8-8-8-8-8-8-8-8-5-5-5-5-5-5-5-5-|

Verses (Palm Muted)
E|----------------------------------------------------------------------|
B|----------------------------------------------------------------------|
G|----------------------------------------------------------------------|
D|-----------------------------------------------------------------5-55-|
A|-5-5-5-5-5-5-5-5-2-2-2-2-2-2-2-2-8-8-8-8-8-8-8-8-5-5-5-5-5-5-5-5-3-33-|
D|-5-5-5-5-5-5-5-5-2-2-2-2-2-2-2-2-8-8-8-8-8-8-8-8-5-5-5-5-5-5-5-5------|
PM * * * * * * * * * * * * * * * * * * * * * * * * * * * * * * * *  

E|---------------------------------------------------------------|
B|---------------------------------------------------------------|
G|---------------------------------------------------------------|
D|----------------------------------------------------33-3-3-----|
A|-11/3-3-3-3-3-3-3-3-6-6-6-6-6-6-6-6-1-1-1-1-1-1-1-1-11-1-1-3/5-|
D|-11/3-3-3-3-3-3-3-3-6-6-6-6-6-6-6-6-1-1-1-1-1-1-1-1--------3/5-|
PM **** * * * * * * * * * * * * * * * * * * * * * * *        *** 


Chorus (Same But Play Unmuted)
E|----------------------------------------------------------------------|
B|----------------------------------------------------------------------|
G|----------------------------------------------------------------------|
D|-----------------------------------------------------------------5-55-|
A|-5-5-5-5-5-5-5-5-2-2-2-2-2-2-2-2-8-8-8-8-8-8-8-8-5-5-5-5-5-5-5-5-3-33-|
D|-5-5-5-5-5-5-5-5-2-2-2-2-2-2-2-2-8-8-8-8-8-8-8-8-5-5-5-5-5-5-5-5------|


E|---------------------------------------------------------------|
B|---------------------------------------------------------------|
G|---------------------------------------------------------------|
D|----------------------------------------------------33-3-3-----|
A|-11/3-3-3-3-3-3-3-3-6-6-6-6-6-6-6-6-1-1-1-1-1-1-1-1-11-1-1-3/5-|
D|-11/3-3-3-3-3-3-3-3-6-6-6-6-6-6-6-6-1-1-1-1-1-1-1-1--------3/5-|

Tap to rate this tab
# A B C D E F G H I J K L M N O P Q R S T U V W X Y Z