Song name
# A B C D E F G H I J K L M N O P Q R S T U V W X Y Z

Washya - Tusken Dawn tab

-----------------------------------------------------------------------------
               Tusken Dawn - Washya
-----------------------------------------------------------------------------
Tuning: Drop C (DAFCGC)
Intro
D|-------------------------------------------------------------------|
A|-------------------------------------------------------------------|
F|-------------------------------------------------------------------|
C|---------------3p2p0---------------------------3p2p0-------5-------|
G|---------3p2p0-------3p2p0---------------3p2p0-------0h2h3---------|
C|-0000000-------------------0h2h3-0000000---------------------0h2h3-|
PM *******                         *******                       

Part 2
D|-------------------------------------|
A|-------------------------------------|
F|-------------------------------------|
C|---------------3p2p0-------3p2-------|
G|-----3p2p0---------------5-----3/5/7-|
C|-000-------000-------000-------3/5/7-|
PM ***       ***       *** 

Verses
D|-------------------------------------------------------|
A|-------------------------------------------------------|
F|-------------------------------------------------------|
C|---------------------------------------------2p0-------|
G|---------3---------5---------3---------0h2h3-----3/5/7-|
C|-0000000---0000000---0000000---0000000-----------3/5/7-|
PM *******   *******   *******   ******* 

Chorus
D|----------------------------------------------|
A|----------------------------------------------|
F|----------------------------------------------|
C|---------5------------------------------------|
G|-444-1/2-3-3-5-6-5/8888888-3-0h2h3p2p1p0-55/6-|
C|-444-1/2---3-5-6-5/8888888-3-0h2h3p2p1p0-55/6-|
Tap to rate this tab
# A B C D E F G H I J K L M N O P Q R S T U V W X Y Z