Song name
# A B C D E F G H I J K L M N O P Q R S T U V W X Y Z

Washya - Rattled tab

-----------------------------------------------------------------------------
                      Rattled - Washya
-----------------------------------------------------------------------------
Tuning: Standard (EBGDAE)
Intro
E|-------------------------------------------|
B|-------------------------------------------|
G|-------3b-3b-------5b-5b-------------------|
D|-------3b-3b-------5b-5b-------------------|
A|-2-222-------2-222-------2-222-3/5-3/5-3-2-|
E|-0-000-------0-000-------0-000-1/3-1/3-1-0-|
PM * ***       * ***       * *** *** *** *  

Verses
E|----------------------------------------------------|
B|----------------------------------------------------|
G|---------2*------------------6*---------------------|
D|-------4----5-4-2----------4----4-------------------|
A|---2/5------------4-2--4-6--------5-4-3-------------|
E|-0--------------------------------------5-3-5-6-1/3-|
PM                                        * * * * ***

Chorus (Play Very Fast)(Play Palm muted  2nd, 4th, and Last Time Around) 
E|----------------------------------------|
B|----------------------------------------|
G|----------------------------------------|
D|---------------------------------333-2--|
A|-5/7/9-2-3-5-5/7/9-2-3-5-5/7/9-2-111-0--|
E|-3/5/7-0-1-3-3/5/7-0-1-3-3/5/7-0--------|
Tap to rate this tab
 
# A B C D E F G H I J K L M N O P Q R S T U V W X Y Z