Song name
# A B C D E F G H I J K L M N O P Q R S T U V W X Y Z

Washya - Pinch Hitter tab

-----------------------------------------------------------------------------
        Pinch Hitter - Washya
-----------------------------------------------------------------------------
Tuning: D Tuning (DAFCGD)
Intro
D|-----------------------------|
A|-----------------------------|
F|-----------------------------|
C|-----------------------555\4-|
G|-2-3-4-2-444\3-2-3-4-2-333\2-|
D|-0-1-2-0-222\1-0-1-2-0-------|

Verses
D|---------------------------------------------------------------|
A|---------------------------------------------------------------|
F|---------------------------------------------------------------|
C|---------------------------------------------------------------|
G|-2-----------------3-----------------4-----------------2-3-4-2-|
D|-0-0000-0-00-00000-1-1111-1-11-11111-2-2222-2-22-22222-0-1-2-0-|
PM   **** * ** *****   **** * ** *****   **** * ** ***** * * *  

Chorus
D|---------------------------------------------------|
A|---------------------------------------------------|
F|---------------------------------------------------|
C|---------0-----4h5---------------5p3p0-------------|
G|---0h2h3---0h2-------------0h2p0-------0-----5-4-3-|
D|-0-----------------0-3p2p0---------------2p0-3-2-1-|
Tap to rate this tab
# A B C D E F G H I J K L M N O P Q R S T U V W X Y Z