Song name
# A B C D E F G H I J K L M N O P Q R S T U V W X Y Z

Washya - Snap Your Fingers Snap Your Neck tab

------------------------------------------------------------------------------
     Snap Your Fingers Snap Your Neck - Grinspoon
------------------------------------------------------------------------------
Tuning: Drop D (DADGBE)
Intro
E|-------0-|
B|-------0-|
G|-------6-|
D|-------0-|
A|-1-1-0-0-|
D|-1-1-0-0-|

Part 2
E|-------------------------|
B|-------------------------|
G|-------------------------|
D|-------------------------|
A|-1-1-0-000-12\-1-1-0-000-|
D|-1-1-0-000-12\-1-1-0-000-|

Verses
E|----------------------|
B|----------------------|
G|----------------------|
D|----------------------|
A|-------------------5~-|
D|-0-6-0-5-0-6-0-5-0----|
PM *   *   *   *   * 

Chorus
E|-------------|
B|-------------|
G|-------------|
D|-55/888\7-77-|
A|-33/666\5-55-|
D|-------------|

Solo 
E|--------------------------------------------------------------------------|
B|----------------------------------------9h11p9----9h11p9----9h11p9----13~-|
G|-3-3/6-6\5-5--6-5-5-/7-77/9-99-/10~-10b--------10--------10--------10-----|
D|--------------------------------------------------------------------------|
A|--------------------------------------------------------------------------|
D|--------------------------------------------------------------------------|
Tap to rate this tab
# A B C D E F G H I J K L M N O P Q R S T U V W X Y Z