Song name
# A B C D E F G H I J K L M N O P Q R S T U V W X Y Z

Washya - Ballistic tab

-----------------------------------------------------------------------------
                        Ballistic - Washya
-----------------------------------------------------------------------------
Tuning: Standard (EBGDAE)
Intro
E|---------------------------------|
B|---------------------------------|
G|-7\5-5-5---------9\7-7-7---------|
D|---------------------------------|
A|-5\3-3-3-3/5-5-2-7\5-5-5-5/7-7-2-|
E|---------1/3-3-0---------3/5-5-0-|

Verses
E|----------------------------------------|
B|----------------------------------------|
G|---/7~---/7/10~-----9/12~---------------|
D|------------------7-----------2-----3---|
A|----------------------------2-----3---2-|
E|-0-----0--------0---------0-----1-----0-|

Chorus
E|-----------------------------------------------------------------------|
B|-----------------------------------------------------------------------|
G|-5555/888----------------6----------------------3333/5-----------------|
D|-------------------7-6-------6-6/7-------------------------------3-5---|
A|-3333/666-8-8888-8-----8---8---4/5-7-7777-4/5-2-1111/3-5-----3-----3-5-|
E|----------6-6666-------------------5-5555-2/3-0--------3-3-5---5-----3-|
PM            ****                     ****                * * * *   
Tap to rate this tab
# A B C D E F G H I J K L M N O P Q R S T U V W X Y Z