Song name
# A B C D E F G H I J K L M N O P Q R S T U V W X Y Z

Washya - Brutal Response tab

-----------------------------------------------------------------------------
                    Brutal Response - Washya
-----------------------------------------------------------------------------
Tuning: Drop D (DADGBE)
Intro
E|------------------|
B|------------------|
G|------------------|
D|------------------|
A|-0000-0-0-0-00-00-|
D|-0000-0-0-0-00-00-|x2

Verses
E|-------------------|---------------|
B|-------------------|---------------|
G|-------------------|---------------|
D|-------------------|---------------|
A|-0-3-0-3-0-6-0-3-3-|-0-33-33-2-6\5-|
D|-0-3-0-3-0-6-0-3-3-|-0-33-33-2-6\5-|
PM * * * * * * *       * ** **      

Chorus
E|-----------------------------------------------------------|
B|-----------------------------------------------------------|
G|-----------------------------------------------------------|
D|-----------------------------------------------------------|
A|-7-6--0-6-3-0-1-3-0-2-3-2-0--3-6-5-0-3-5-3-0-33-33-2-3-2-0-|
D|-7-6--0-6-3-0-1-3-0-2-3-2-0--3-6-5-0-3-5-3-0-33-33-2-3-2-0-|
Tap to rate this tab
# A B C D E F G H I J K L M N O P Q R S T U V W X Y Z